  0
SECTION
  2
HEADER
  9
$ACADVER
  1
AC1015
  9
$ACADMAINTVER
 70
     6
  9
$DWGCODEPAGE
  3
ANSI_1254
  9
$INSBASE
 10
0.0
 20
0.0
 30
0.0
  9
$EXTMIN
 10
0.0
 20
0.0
 30
0.0
  9
$EXTMAX
 10
279.4
 20
215.9
 30
0.0
  9
$LIMMIN
 10
0.0
 20
0.0
  9
$LIMMAX
 10
279.4
 20
215.9
  9
$ORTHOMODE
 70
     0
  9
$REGENMODE
 70
     1
  9
$FILLMODE
 70
     1
  9
$QTEXTMODE
 70
     0
  9
$MIRRTEXT
 70
     1
  9
$LTSCALE
 40
1.0
  9
$ATTMODE
 70
     1
  9
$TEXTSIZE
 40
3.5
  9
$TRACEWID
 40
1.0
  9
$TEXTSTYLE
  7
Standard
  9
$CLAYER
  8
0
  9
$CELTYPE
  6
ByLayer
  9
$CECOLOR
 62
   256
  9
$CELTSCALE
 40
1.0
  9
$DISPSILH
 70
     0
  9
$DIMSCALE
 40
1.0
  9
$DIMASZ
 40
3.5
  9
$DIMEXO
 40
1.0
  9
$DIMDLI
 40
3.75
  9
$DIMRND
 40
0.0
  9
$DIMDLE
 40
0.0
  9
$DIMEXE
 40
1.0
  9
$DIMTP
 40
0.0
  9
$DIMTM
 40
0.0
  9
$DIMTXT
 40
3.5
  9
$DIMCEN
 40
2.5
  9
$DIMTSZ
 40
0.0
  9
$DIMTOL
 70
     0
  9
$DIMLIM
 70
     0
  9
$DIMTIH
 70
     1
  9
$DIMTOH
 70
     1
  9
$DIMSE1
 70
     0
  9
$DIMSE2
 70
     0
  9
$DIMTAD
 70
     1
  9
$DIMZIN
 70
     0
  9
$DIMBLK
  1

  9
$DIMASO
 70
     1
  9
$DIMSHO
 70
     1
  9
$DIMPOST
  1

  9
$DIMAPOST
  1

  9
$DIMALT
 70
     0
  9
$DIMALTD
 70
     3
  9
$DIMALTF
 40
0.0393700787
  9
$DIMLFAC
 40
1.0
  9
$DIMTOFL
 70
     1
  9
$DIMTVP
 40
0.0
  9
$DIMTIX
 70
     0
  9
$DIMSOXD
 70
     0
  9
$DIMSAH
 70
     0
  9
$DIMBLK1
  1

  9
$DIMBLK2
  1

  9
$DIMSTYLE
  2
ISO-25
  9
$DIMCLRD
 70
     0
  9
$DIMCLRE
 70
     0
  9
$DIMCLRT
 70
     0
  9
$DIMTFAC
 40
1.0
  9
$DIMGAP
 40
1.524
  9
$DIMJUST
 70
     0
  9
$DIMSD1
 70
     0
  9
$DIMSD2
 70
     0
  9
$DIMTOLJ
 70
     0
  9
$DIMTZIN
 70
     0
  9
$DIMALTZ
 70
     0
  9
$DIMALTTZ
 70
     0
  9
$DIMUPT
 70
     0
  9
$DIMDEC
 70
     2
  9
$DIMTDEC
 70
     2
  9
$DIMALTU
 70
     2
  9
$DIMALTTD
 70
     3
  9
$DIMTXSTY
  7
Standard
  9
$DIMAUNIT
 70
     0
  9
$DIMADEC
 70
     2
  9
$DIMALTRND
 40
0.0
  9
$DIMAZIN
 70
     0
  9
$DIMDSEP
 70
    44
  9
$DIMATFIT
 70
     3
  9
$DIMFRAC
 70
     0
  9
$DIMLDRBLK
  1

  9
$DIMLUNIT
 70
     2
  9
$DIMLWD
 70
    -2
  9
$DIMLWE
 70
    -2
  9
$DIMTMOVE
 70
     0
  9
$LUNITS
 70
     2
  9
$LUPREC
 70
     2
  9
$SKETCHINC
 40
1.0
  9
$FILLETRAD
 40
10.0
  9
$AUNITS
 70
     0
  9
$AUPREC
 70
     2
  9
$MENU
  1
.
  9
$ELEVATION
 40
0.0
  9
$PELEVATION
 40
0.0
  9
$THICKNESS
 40
0.0
  9
$LIMCHECK
 70
     0
  9
$CHAMFERA
 40
0.0
  9
$CHAMFERB
 40
0.0
  9
$CHAMFERC
 40
0.0
  9
$CHAMFERD
 40
0.0
  9
$SKPOLY
 70
     0
  9
$TDCREATE
 40
2459935.700480347
  9
$TDUCREATE
 40
2459935.575480347
  9
$TDUPDATE
 40
2459935.700480521
  9
$TDUUPDATE
 40
2459935.575480521
  9
$TDINDWG
 40
0.0000000116
  9
$TDUSRTIMER
 40
0.0000000116
  9
$USRTIMER
 70
     1
  9
$ANGBASE
 50
0.0
  9
$ANGDIR
 70
     0
  9
$PDMODE
 70
     0
  9
$PDSIZE
 40
-1.0
  9
$PLINEWID
 40
0.0
  9
$SPLFRAME
 70
     0
  9
$SPLINETYPE
 70
     6
  9
$SPLINESEGS
 70
     8
  9
$HANDSEED
  5
D2
  9
$SURFTAB1
 70
     6
  9
$SURFTAB2
 70
     6
  9
$SURFTYPE
 70
     6
  9
$SURFU
 70
     6
  9
$SURFV
 70
     6
  9
$UCSBASE
  2

  9
$UCSNAME
  2

  9
$UCSORG
 10
0.0
 20
0.0
 30
0.0
  9
$UCSXDIR
 10
1.0
 20
0.0
 30
0.0
  9
$UCSYDIR
 10
0.0
 20
1.0
 30
0.0
  9
$UCSORTHOREF
  2

  9
$UCSORTHOVIEW
 70
     0
  9
$UCSORGTOP
 10
0.0
 20
0.0
 30
0.0
  9
$UCSORGBOTTOM
 10
0.0
 20
0.0
 30
0.0
  9
$UCSORGLEFT
 10
0.0
 20
0.0
 30
0.0
  9
$UCSORGRIGHT
 10
0.0
 20
0.0
 30
0.0
  9
$UCSORGFRONT
 10
0.0
 20
0.0
 30
0.0
  9
$UCSORGBACK
 10
0.0
 20
0.0
 30
0.0
  9
$PUCSBASE
  2

  9
$PUCSNAME
  2

  9
$PUCSORG
 10
0.0
 20
0.0
 30
0.0
  9
$PUCSXDIR
 10
1.0
 20
0.0
 30
0.0
  9
$PUCSYDIR
 10
0.0
 20
1.0
 30
0.0
  9
$PUCSORTHOREF
  2

  9
$PUCSORTHOVIEW
 70
     0
  9
$PUCSORGTOP
 10
0.0
 20
0.0
 30
0.0
  9
$PUCSORGBOTTOM
 10
0.0
 20
0.0
 30
0.0
  9
$PUCSORGLEFT
 10
0.0
 20
0.0
 30
0.0
  9
$PUCSORGRIGHT
 10
0.0
 20
0.0
 30
0.0
  9
$PUCSORGFRONT
 10
0.0
 20
0.0
 30
0.0
  9
$PUCSORGBACK
 10
0.0
 20
0.0
 30
0.0
  9
$USERI1
 70
     0
  9
$USERI2
 70
     0
  9
$USERI3
 70
     0
  9
$USERI4
 70
     0
  9
$USERI5
 70
     0
  9
$USERR1
 40
0.0
  9
$USERR2
 40
0.0
  9
$USERR3
 40
0.0
  9
$USERR4
 40
0.0
  9
$USERR5
 40
0.0
  9
$WORLDVIEW
 70
     1
  9
$SHADEDGE
 70
     3
  9
$SHADEDIF
 70
    70
  9
$TILEMODE
 70
     1
  9
$MAXACTVP
 70
    64
  9
$PINSBASE
 10
0.0
 20
0.0
 30
0.0
  9
$PLIMCHECK
 70
     0
  9
$PEXTMIN
 10
1.0000000000E+20
 20
1.0000000000E+20
 30
1.0000000000E+20
  9
$PEXTMAX
 10
-1.0000000000E+20
 20
-1.0000000000E+20
 30
-1.0000000000E+20
  9
$PLIMMIN
 10
0.0
 20
0.0
  9
$PLIMMAX
 10
420.0
 20
297.0
  9
$UNITMODE
 70
     0
  9
$VISRETAIN
 70
     1
  9
$PLINEGEN
 70
     0
  9
$PSLTSCALE
 70
     1
  9
$TREEDEPTH
 70
  3020
  9
$CMLSTYLE
  2
Standard
  9
$CMLJUST
 70
     0
  9
$CMLSCALE
 40
20.0
  9
$PROXYGRAPHICS
 70
     1
  9
$MEASUREMENT
 70
     1
  9
$CELWEIGHT
370
    -1
  9
$ENDCAPS
280
     0
  9
$JOINSTYLE
280
     0
  9
$LWDISPLAY
290
     1
  9
$INSUNITS
 70
     4
  9
$HYPERLINKBASE
  1

  9
$STYLESHEET
  1

  9
$XEDIT
290
     1
  9
$CEPSNTYPE
380
     0
  9
$PSTYLEMODE
290
     1
  9
$FINGERPRINTGUID
  2
{567defa4-fc64-4326-9d47-d653623daab0}
  9
$VERSIONGUID
  2
{FAEB1C32-E019-11D5-929B-00C0DF256EC4}
  9
$EXTNAMES
290
     1
  9
$PSVPSCALE
 40
0.0
  9
$OLESTARTUP
290
     0
  0
ENDSEC
  0
SECTION
  2
CLASSES
  0
CLASS
  1
ACDBDICTIONARYWDFLT
  2
AcDbDictionaryWithDefault
  3
ObjectDBX Classes
 90
        0
280
     0
281
     0
  0
CLASS
  1
VISUALSTYLE
  2
AcDbVisualStyle
  3
ObjectDBX Classes
 90
     4095
280
     0
281
     0
  0
CLASS
  1
MATERIAL
  2
AcDbMaterial
  3
ObjectDBX Classes
 90
     1153
280
     0
281
     0
  0
CLASS
  1
SCALE
  2
AcDbScale
  3
ObjectDBX Classes
 90
     1153
280
     0
281
     0
  0
CLASS
  1
TABLESTYLE
  2
AcDbTableStyle
  3
ObjectDBX Classes
 90
     4095
280
     0
281
     0
  0
CLASS
  1
MLEADERSTYLE
  2
AcDbMLeaderStyle
  3
ACDB_MLEADERSTYLE_CLASS
 90
     4095
280
     0
281
     0
  0
CLASS
  1
SUN
  2
AcDbSun
  3
SCENEOE
 90
     1153
280
     0
281
     0
  0
CLASS
  1
ACDBPLACEHOLDER
  2
AcDbPlaceHolder
  3
ObjectDBX Classes
 90
        0
280
     0
281
     0
  0
CLASS
  1
LAYOUT
  2
AcDbLayout
  3
ObjectDBX Classes
 90
        0
280
     0
281
     0
  0
ENDSEC
  0
SECTION
  2
TABLES
  0
TABLE
  2
VPORT
  5
8
330
0
100
AcDbSymbolTable
 70
     1
  0
VPORT
  5
29
330
8
100
AcDbSymbolTableRecord
100
AcDbViewportTableRecord
  2
*Active
 70
     0
 10
0.0
 20
0.0
 11
1.0
 21
1.0
 12
139.7
 22
107.95
 13
0.0
 23
0.0
 14
10.0
 24
10.0
 15
10.0
 25
10.0
 16
0.0
 26
0.0
 36
1.0
 17
0.0
 27
0.0
 37
0.0
 40
215.9
 41
1.2941176471
 42
50.0
 43
0.0
 44
0.0
 50
0.0
 51
0.0
 71
     0
 72
  2000
 73
     1
 74
     3
 75
     0
 76
     0
 77
     0
 78
     0
281
     0
 65
     1
110
0.0
120
0.0
130
0.0
111
1.0
121
0.0
131
0.0
112
0.0
122
1.0
132
0.0
 79
     0
146
0.0
  0
ENDTAB
  0
TABLE
  2
LTYPE
  5
5
330
0
100
AcDbSymbolTable
 70
     6
  0
LTYPE
  5
14
330
5
100
AcDbSymbolTableRecord
100
AcDbLinetypeTableRecord
  2
ByBlock
 70
     0
  3

 72
    65
 73
     0
 40
0.0
  0
LTYPE
  5
15
330
5
100
AcDbSymbolTableRecord
100
AcDbLinetypeTableRecord
  2
ByLayer
 70
     0
  3

 72
    65
 73
     0
 40
0.0
  0
LTYPE
  5
16
330
5
100
AcDbSymbolTableRecord
100
AcDbLinetypeTableRecord
  2
Continuous
 70
     0
  3
Solid line
 72
    65
 73
     0
 40
0.0
  0
LTYPE
  5
6E
330
5
100
AcDbSymbolTableRecord
100
AcDbLinetypeTableRecord
  2
HIDDEN
 70
     0
  3
Hidden __ __ __ __ __ __ __ __ __ __ __ __ __ __
 72
    65
 73
     2
 40
1.905
 49
1.27
 74
     0
 49
-0.635
 74
     0
  0
LTYPE
  5
6F
330
5
100
AcDbSymbolTableRecord
100
AcDbLinetypeTableRecord
  2
PHANTOM
 70
     0
  3
Phantom ______  __  __  ______  __  __  ______
 72
    65
 73
     6
 40
12.7
 49
6.35
 74
     0
 49
-1.27
 74
     0
 49
1.27
 74
     0
 49
-1.27
 74
     0
 49
1.27
 74
     0
 49
-1.27
 74
     0
  0
LTYPE
  5
70
330
5
100
AcDbSymbolTableRecord
100
AcDbLinetypeTableRecord
  2
CENTER
 70
     0
  3
Center ____ _ ____ _ ____ _ ____ _ ____ _ ____
 72
    65
 73
     4
 40
10.16
 49
6.35
 74
     0
 49
-1.27
 74
     0
 49
1.27
 74
     0
 49
-1.27
 74
     0
  0
LTYPE
  5
71
330
5
100
AcDbSymbolTableRecord
100
AcDbLinetypeTableRecord
  2
CENTERX2
 70
     0
  3
Center (2x) ________  __  ________  __  _____
 72
    65
 73
     4
 40
20.32
 49
12.7
 74
     0
 49
-2.54
 74
     0
 49
2.54
 74
     0
 49
-2.54
 74
     0
  0
LTYPE
  5
72
330
5
100
AcDbSymbolTableRecord
100
AcDbLinetypeTableRecord
  2
DOT2
 70
     0
  3
Dot (.5x) ........................................
 72
    65
 73
     2
 40
0.635
 49
0.0
 74
     0
 49
-0.635
 74
     0
  0
ENDTAB
  0
TABLE
  2
LAYER
  5
2
330
0
100
AcDbSymbolTable
 70
    17
  0
LAYER
  5
10
330
2
100
AcDbSymbolTableRecord
100
AcDbLayerTableRecord
  2
0
 70
     0
 62
     7
  6
Continuous
370
    -3
390
F
  0
LAYER
  5
73
330
2
100
AcDbSymbolTableRecord
100
AcDbLayerTableRecord
  2
FORMAT
 70
     0
 62
     7
  6
Continuous
370
    -3
390
F
  0
LAYER
  5
74
330
2
100
AcDbSymbolTableRecord
100
AcDbLayerTableRecord
  2
YARDIMCI_GEOMETRI
 70
     0
 62
    -6
  6
Continuous
290
     0
370
    -3
390
F
  0
LAYER
  5
75
330
2
100
AcDbSymbolTableRecord
100
AcDbLayerTableRecord
  2
SAYFA_CERCEVESI
 70
     0
 62
     7
  6
Continuous
370
    25
390
F
  0
LAYER
  5
76
330
2
100
AcDbSymbolTableRecord
100
AcDbLayerTableRecord
  2
ANTET
 70
     0
 62
     7
  6
Continuous
370
    -3
390
F
  0
LAYER
  5
77
330
2
100
AcDbSymbolTableRecord
100
AcDbLayerTableRecord
  2
OLCU
 70
     0
 62
   150
  6
Continuous
370
    -3
390
F
  0
LAYER
  5
78
330
2
100
AcDbSymbolTableRecord
100
AcDbLayerTableRecord
  2
METIN
 70
     0
 62
    96
  6
Continuous
370
    -3
390
F
  0
LAYER
  5
79
330
2
100
AcDbSymbolTableRecord
100
AcDbLayerTableRecord
  2
BALON
 70
     0
 62
     5
  6
Continuous
370
    -3
390
F
  0
LAYER
  5
7A
330
2
100
AcDbSymbolTableRecord
100
AcDbLayerTableRecord
  2
VURGU
 70
     0
 62
     7
  6
Continuous
370
    -3
390
F
  0
LAYER
  5
7B
330
2
100
AcDbSymbolTableRecord
100
AcDbLayerTableRecord
  2
SILIK
 70
     0
 62
     7
  6
Continuous
370
    -3
390
F
  0
LAYER
  5
7C
330
2
100
AcDbSymbolTableRecord
100
AcDbLayerTableRecord
  2
MODEL
 70
     0
 62
     7
  6
Continuous
370
    -3
390
F
  0
LAYER
  5
7D
330
2
100
AcDbSymbolTableRecord
100
AcDbLayerTableRecord
  2
DETAYLANDıRMA
 70
     0
 62
   190
  6
Continuous
370
    -3
390
F
  0
LAYER
  5
7E
330
2
100
AcDbSymbolTableRecord
100
AcDbLayerTableRecord
  2
TOLERANS
 70
     0
 62
   230
  6
Continuous
370
    -3
390
F
  0
LAYER
  5
7F
330
2
100
AcDbSymbolTableRecord
100
AcDbLayerTableRecord
  2
MERKEZ_CIZGILERI
 70
     0
 62
    30
  6
Continuous
370
    -3
390
F
  0
LAYER
  5
80
330
2
100
AcDbSymbolTableRecord
100
AcDbLayerTableRecord
  2
KESIT-DETAY_CIZGILERI
 70
     0
 62
     7
  6
Continuous
370
    -3
390
F
  0
LAYER
  5
81
330
2
100
AcDbSymbolTableRecord
100
AcDbLayerTableRecord
  2
\U+041E\U+0421\U+0415\U+0412\U+042B\U+0415
 70
     0
 62
     7
  6
Continuous
370
    -3
390
F
  0
LAYER
  5
82
330
2
100
AcDbSymbolTableRecord
100
AcDbLayerTableRecord
  2
\U+0412\U+041E\U+0414\U+042F\U+041D\U+042B\U+0415_\U+0417\U+041D\U+0410\U+041A\U+0418
 70
     0
 62
    11
  6
Continuous
370
    -3
390
F
  0
ENDTAB
  0
TABLE
  2
STYLE
  5
3
330
0
100
AcDbSymbolTable
 70
     1
  0
STYLE
  5
11
330
3
100
AcDbSymbolTableRecord
100
AcDbTextStyleTableRecord
  2
Standard
 70
     0
 40
0.0
 41
1.0
 50
0.0
 71
     0
 42
3.5
  3
txt
  4

  0
ENDTAB
  0
TABLE
  2
VIEW
  5
6
330
0
100
AcDbSymbolTable
 70
     0
  0
ENDTAB
  0
TABLE
  2
UCS
  5
7
330
0
100
AcDbSymbolTable
 70
     0
  0
ENDTAB
  0
TABLE
  2
APPID
  5
9
330
0
100
AcDbSymbolTable
 70
     1
  0
APPID
  5
12
330
9
100
AcDbSymbolTableRecord
100
AcDbRegAppTableRecord
  2
ACAD
 70
     0
  0
ENDTAB
  0
TABLE
  2
DIMSTYLE
  5
A
330
0
100
AcDbSymbolTable
 70
     1
100
AcDbDimStyleTable
  0
DIMSTYLE
105
27
330
A
100
AcDbSymbolTableRecord
100
AcDbDimStyleTableRecord
  2
ISO-25
 70
     0
 41
2.5
 42
0.625
 43
3.75
 44
1.25
 73
     0
 74
     0
 77
     1
 78
     8
140
2.5
141
2.5
143
0.0393700787
147
0.625
171
     3
172
     1
178
     0
271
     2
272
     2
274
     3
278
    44
283
     0
284
     8
340
11
  0
ENDTAB
  0
TABLE
  2
BLOCK_RECORD
  5
1
330
0
100
AcDbSymbolTable
 70
     3
  0
BLOCK_RECORD
  5
1F
330
1
100
AcDbSymbolTableRecord
100
AcDbBlockTableRecord
  2
*Model_Space
340
22
  0
BLOCK_RECORD
  5
1B
330
1
100
AcDbSymbolTableRecord
100
AcDbBlockTableRecord
  2
*Paper_Space
340
1E
  0
BLOCK_RECORD
  5
23
330
1
100
AcDbSymbolTableRecord
100
AcDbBlockTableRecord
  2
*Paper_Space0
340
26
  0
BLOCK_RECORD
  5
88
330
1
100
AcDbSymbolTableRecord
100
AcDbBlockTableRecord
  2
SW_CENTERMARKSYMBOL_0
340
0
102
{BLKREFS
331
93
102
}
  0
BLOCK_RECORD
  5
BB
330
1
100
AcDbSymbolTableRecord
100
AcDbBlockTableRecord
  2
SW_CENTERMARKSYMBOL_1
340
0
102
{BLKREFS
331
C6
102
}
  0
ENDTAB
  0
ENDSEC
  0
SECTION
  2
BLOCKS
  0
BLOCK
  5
20
330
1F
100
AcDbEntity
  8
0
100
AcDbBlockBegin
  2
*Model_Space
 70
     0
 10
0.0
 20
0.0
 30
0.0
  3
*Model_Space
  1

  0
ENDBLK
  5
21
330
1F
100
AcDbEntity
  8
0
100
AcDbBlockEnd
  0
BLOCK
  5
1C
330
1B
100
AcDbEntity
 67
     1
  8
0
100
AcDbBlockBegin
  2
*Paper_Space
 70
     0
 10
0.0
 20
0.0
 30
0.0
  3
*Paper_Space
  1

  0
ENDBLK
  5
1D
330
1B
100
AcDbEntity
 67
     1
  8
0
100
AcDbBlockEnd
  0
BLOCK
  5
24
330
23
100
AcDbEntity
  8
0
100
AcDbBlockBegin
  2
*Paper_Space0
 70
     0
 10
0.0
 20
0.0
 30
0.0
  3
*Paper_Space0
  1

  0
ENDBLK
  5
25
330
23
100
AcDbEntity
  8
0
100
AcDbBlockEnd
  0
BLOCK
  5
89
330
88
100
AcDbEntity
  8
0
100
AcDbBlockBegin
  2
SW_CENTERMARKSYMBOL_0
 70
     0
 10
0.0
 20
0.0
 30
0.0
  3
SW_CENTERMARKSYMBOL_0
  1

  0
LINE
  5
8B
330
88
100
AcDbEntity
  8
FORMAT
 62
     0
100
AcDbLine
 10
0.0
 20
0.0
 30
0.0
 11
0.0
 21
2.5
 31
0.0
  0
LINE
  5
8C
330
88
100
AcDbEntity
  8
FORMAT
 62
     0
100
AcDbLine
 10
0.0
 20
0.0
 30
0.0
 11
-2.5
 21
0.0
 31
0.0
  0
LINE
  5
8D
330
88
100
AcDbEntity
  8
FORMAT
 62
     0
100
AcDbLine
 10
0.0
 20
0.0
 30
0.0
 11
0.0
 21
-2.5
 31
0.0
  0
LINE
  5
8E
330
88
100
AcDbEntity
  8
FORMAT
 62
     0
100
AcDbLine
 10
0.0
 20
0.0
 30
0.0
 11
2.5
 21
0.0
 31
0.0
  0
LINE
  5
8F
330
88
100
AcDbEntity
  8
FORMAT
 62
     0
100
AcDbLine
 10
0.0
 20
5.0
 30
0.0
 11
0.0
 21
34.0
 31
0.0
  0
LINE
  5
90
330
88
100
AcDbEntity
  8
FORMAT
 62
     0
100
AcDbLine
 10
-5.0
 20
0.0
 30
0.0
 11
-34.0
 21
0.0
 31
0.0
  0
LINE
  5
91
330
88
100
AcDbEntity
  8
FORMAT
 62
     0
100
AcDbLine
 10
0.0
 20
-5.0
 30
0.0
 11
0.0
 21
-34.0
 31
0.0
  0
LINE
  5
92
330
88
100
AcDbEntity
  8
FORMAT
 62
     0
100
AcDbLine
 10
5.0
 20
0.0
 30
0.0
 11
34.0
 21
0.0
 31
0.0
  0
ENDBLK
  5
8A
330
88
100
AcDbEntity
  8
0
100
AcDbBlockEnd
  0
BLOCK
  5
BC
330
BB
100
AcDbEntity
  8
0
100
AcDbBlockBegin
  2
SW_CENTERMARKSYMBOL_1
 70
     0
 10
0.0
 20
0.0
 30
0.0
  3
SW_CENTERMARKSYMBOL_1
  1

  0
LINE
  5
BE
330
BB
100
AcDbEntity
  8
FORMAT
 62
     0
100
AcDbLine
 10
0.0
 20
0.0
 30
0.0
 11
0.0
 21
2.5
 31
0.0
  0
LINE
  5
BF
330
BB
100
AcDbEntity
  8
FORMAT
 62
     0
100
AcDbLine
 10
0.0
 20
0.0
 30
0.0
 11
-2.5
 21
0.0
 31
0.0
  0
LINE
  5
C0
330
BB
100
AcDbEntity
  8
FORMAT
 62
     0
100
AcDbLine
 10
0.0
 20
0.0
 30
0.0
 11
0.0
 21
-2.5
 31
0.0
  0
LINE
  5
C1
330
BB
100
AcDbEntity
  8
FORMAT
 62
     0
100
AcDbLine
 10
0.0
 20
0.0
 30
0.0
 11
2.5
 21
0.0
 31
0.0
  0
LINE
  5
C2
330
BB
100
AcDbEntity
  8
FORMAT
 62
     0
100
AcDbLine
 10
0.0
 20
5.0
 30
0.0
 11
0.0
 21
34.0
 31
0.0
  0
LINE
  5
C3
330
BB
100
AcDbEntity
  8
FORMAT
 62
     0
100
AcDbLine
 10
-5.0
 20
0.0
 30
0.0
 11
-34.0
 21
0.0
 31
0.0
  0
LINE
  5
C4
330
BB
100
AcDbEntity
  8
FORMAT
 62
     0
100
AcDbLine
 10
0.0
 20
-5.0
 30
0.0
 11
0.0
 21
-34.0
 31
0.0
  0
LINE
  5
C5
330
BB
100
AcDbEntity
  8
FORMAT
 62
     0
100
AcDbLine
 10
5.0
 20
0.0
 30
0.0
 11
34.0
 21
0.0
 31
0.0
  0
ENDBLK
  5
BD
330
BB
100
AcDbEntity
  8
0
100
AcDbBlockEnd
  0
ENDSEC
  0
SECTION
  2
ENTITIES
  0
LINE
  5
83
330
1F
100
AcDbEntity
  8
0
  6
Continuous
 62
     7
370
    25
100
AcDbLine
 10
107.2554326678
 20
75.4118102193
 30
0.0
 11
221.2554326678
 21
75.4118102193
 31
0.0
  0
LINE
  5
84
330
1F
100
AcDbEntity
  8
0
  6
Continuous
 62
     7
370
    25
100
AcDbLine
 10
221.2554326678
 20
138.4118102193
 30
0.0
 11
107.2554326678
 21
138.4118102193
 31
0.0
  0
CIRCLE
  5
85
330
1F
100
AcDbEntity
  8
0
  6
Continuous
 62
     7
370
    25
100
AcDbCircle
 10
107.2554326678
 20
106.9118102193
 30
0.0
 40
27.69999999999999
  0
CIRCLE
  5
86
330
1F
100
AcDbEntity
  8
0
  6
Continuous
 62
     7
370
    25
100
AcDbCircle
 10
107.2554326678
 20
106.9118102193
 30
0.0
 40
31.5
  0
LINE
  5
87
330
1F
100
AcDbEntity
  8
0
  6
Continuous
 62
     7
370
    25
100
AcDbLine
 10
221.2554326678
 20
138.4118102193
 30
0.0
 11
221.2554326678
 21
75.4118102193
 31
0.0
  0
INSERT
  5
93
330
1F
100
AcDbEntity
  8
FORMAT
100
AcDbBlockReference
  2
SW_CENTERMARKSYMBOL_0
 10
107.2554326678
 20
106.9118102193
 30
0.0
  0
LINE
  5
94
330
1F
100
AcDbEntity
  8
0
  6
Continuous
 62
     7
370
    25
100
AcDbLine
 10
138.7554326678
 20
340.2083165524
 30
0.0
 11
138.7554326678
 21
416.7083165524
 31
0.0
  0
LINE
  5
95
330
1F
100
AcDbEntity
  8
0
  6
Continuous
 62
     7
370
    25
100
AcDbLine
 10
138.7554326678
 20
200.7083165524
 30
0.0
 11
138.7554326678
 21
277.2083165524
 31
0.0
  0
LINE
  5
96
330
1F
100
AcDbEntity
  8
0
  6
Continuous
 62
     7
370
    25
100
AcDbLine
 10
75.7554326678
 20
416.7083165524
 30
0.0
 11
75.7554326678
 21
200.7083165524
 31
0.0
  0
LINE
  5
97
330
1F
100
AcDbEntity
  8
0
  6
Continuous
 62
     7
370
    25
100
AcDbLine
 10
138.7554326678
 20
277.2083165524
 30
0.0
 11
221.2554326678
 21
277.2083165524
 31
0.0
  0
LINE
  5
98
330
1F
100
AcDbEntity
  8
0
  6
Continuous
 62
     7
370
    25
100
AcDbLine
 10
221.2554326678
 20
340.2083165524
 30
0.0
 11
138.7554326678
 21
340.2083165524
 31
0.0
  0
LINE
  5
99
330
1F
100
AcDbEntity
  8
0
  6
Continuous
 62
     7
370
    25
100
AcDbLine
 10
138.7554326678
 20
340.2083165524
 30
0.0
 11
107.2554326678
 21
308.7083165524
 31
0.0
  0
LINE
  5
9A
330
1F
100
AcDbEntity
  8
0
  6
Continuous
 62
     7
370
    25
100
AcDbLine
 10
107.2554326678
 20
308.7083165524
 30
0.0
 11
138.7554326678
 21
277.2083165524
 31
0.0
  0
LINE
  5
9B
330
1F
100
AcDbEntity
  8
0
  6
Continuous
 62
     7
370
    25
100
AcDbLine
 10
75.7554326678
 20
416.7083165524
 30
0.0
 11
138.7554326678
 21
416.7083165524
 31
0.0
  0
LINE
  5
9C
330
1F
100
AcDbEntity
  8
0
  6
Continuous
 62
     7
370
    25
100
AcDbLine
 10
75.7554326678
 20
200.7083165524
 30
0.0
 11
138.7554326678
 21
200.7083165524
 31
0.0
  0
LINE
  5
9D
330
1F
100
AcDbEntity
  8
0
  6
Continuous
 62
     7
370
    25
100
AcDbLine
 10
221.2554326678
 20
340.2083165524
 30
0.0
 11
221.2554326678
 21
277.2083165524
 31
0.0
  0
LINE
  5
9E
330
1F
100
AcDbEntity
  8
0
  6
Continuous
 62
     7
370
    25
100
AcDbLine
 10
398.1830002461
 20
75.4118102193
 30
0.0
 11
506.1830002461
 21
75.4118102193
 31
0.0
  0
LINE
  5
9F
330
1F
100
AcDbEntity
  8
0
  6
Continuous
 62
     7
370
    25
100
AcDbLine
 10
290.1830002461
 20
75.4118102193
 30
0.0
 11
398.1830002461
 21
75.4118102193
 31
0.0
  0
LINE
  5
A0
330
1F
100
AcDbEntity
  8
0
  6
Continuous
 62
     7
370
    25
100
AcDbLine
 10
398.1830002461
 20
138.4118102193
 30
0.0
 11
290.1830002461
 21
138.4118102193
 31
0.0
  0
LINE
  5
A1
330
1F
100
AcDbEntity
  8
0
  6
Continuous
 62
     7
370
    25
100
AcDbLine
 10
506.1830002461
 20
138.4118102193
 30
0.0
 11
398.1830002461
 21
138.4118102193
 31
0.0
  0
LINE
  5
A2
330
1F
100
AcDbEntity
  8
0
  6
Continuous
 62
     7
370
    25
100
AcDbLine
 10
506.1830002461
 20
138.4118102193
 30
0.0
 11
506.1830002461
 21
75.4118102193
 31
0.0
  0
LINE
  5
A3
330
1F
100
AcDbEntity
  8
0
  6
Continuous
 62
     7
370
    25
100
AcDbLine
 10
290.1830002461
 20
138.4118102193
 30
0.0
 11
290.1830002461
 21
75.4118102193
 31
0.0
  0
LINE
  5
A4
330
1F
100
AcDbEntity
  8
0
  6
Continuous
 62
     7
370
    25
100
AcDbLine
 10
432.322600753
 20
-125.9765841662
 30
0.0
 11
497.1840537692
 21
-88.5328643519
 31
0.0
  0
LINE
  5
A5
330
1F
100
AcDbEntity
  8
0
  6
Continuous
 62
     7
370
    25
100
AcDbLine
 10
465.6866136912
 20
-33.9717860219
 30
0.0
 11
400.8251606749
 21
-71.4155058362
 31
0.0
  0
LINE
  5
A6
330
1F
100
AcDbEntity
  8
0
  6
Continuous
 62
     7
370
    25
100
AcDbLine
 10
400.8251606749
 20
-71.4155058362
 30
0.0
 11
340.2063483458
 21
-36.4210103574
 31
0.0
  0
LINE
  5
A7
330
1F
100
AcDbEntity
  8
0
  6
Continuous
 62
     7
370
    25
100
AcDbLine
 10
492.9414130821
 20
-124.5930864342
 30
0.0
 11
463.830280935
 21
-107.7875875608
 31
0.0
  0
LINE
  5
A8
330
1F
100
AcDbEntity
  8
0
  6
Continuous
 62
     7
370
    25
100
AcDbLine
 10
308.7089082678
 20
-90.9820886873
 30
0.0
 11
461.4439730041
 21
-179.1541647642
 31
0.0
  0
LWPOLYLINE
  5
A9
330
1F
100
AcDbEntity
  8
0
  6
Continuous
 62
     7
370
    25
100
AcDbPolyline
 90
       78
 70
   128
 43
0.0
 10
501.0221915691
 20
-72.5595775356
 10
500.9570179154
 20
-70.6783618994
 10
500.7619306744
 20
-68.734417544
 10
500.4382281193
 20
-66.7406810985
 10
499.9880644374
 20
-64.7104205499
 10
499.4144353935
 20
-62.6571469472
 10
498.7211583945
 20
-60.5945244874
 10
497.9128470842
 20
-58.5362795828
 10
496.9948806412
 20
-56.4961095136
 10
495.9733679807
 20
-54.4875912749
 10
494.8551071008
 20
-52.5240912243
 10
493.6475398432
 20
-50.6186761307
 10
492.3587023688
 20
-48.7840262172
 10
490.9971716784
 20
-47.0323507761
 10
489.572008534
 20
-45.3753069186
 10
488.0926971613
 20
-43.8239219982
 10
486.5690821333
 20
-42.3885202255
 10
485.0113028567
 20
-41.0786539625
 10
483.4297260955
 20
-39.9030401531
 10
481.8348769822
 20
-38.8695023132
 10
480.2373689745
 20
-37.9849184667
 10
478.6478332246
 20
-37.255175373
 10
477.0768478306
 20
-36.685129352
 10
475.5348674412
 20
-36.2785739661
 10
474.0321536815
 20
-36.0382147741
 10
472.5787068635
 20
-35.9656513269
 10
471.1841994361
 20
-36.0613665222
 10
469.8579116161
 20
-36.3247233913
 10
468.6086696302
 20
-36.7539693375
 10
467.4447869775
 20
-37.3462477999
 10
466.3740091053
 20
-38.0976172631
 10
465.4034618634
 20
-39.0030774873
 10
464.5396040838
 20
-40.0566027841
 10
463.7881845974
 20
-41.2511821164
 10
463.1542039768
 20
-42.5788657559
 10
462.6418812586
 20
-44.030818187
 10
462.2546258659
 20
-45.5973769059
 10
461.9950149195
 20
-47.2681167226
 10
461.8647760873
 20
-49.0319191395
 10
461.8647760873
 20
-50.8770463424
 10
461.9950149195
 20
-52.7912193142
 10
462.2546258659
 20
-54.7616995496
 10
462.6418812586
 20
-56.7753738277
 10
463.1542039768
 20
-58.8188414785
 10
463.7881845974
 20
-60.8785035618
 10
464.5396040838
 20
-62.9406533664
 10
465.4034618634
 20
-64.9915676256
 10
466.3740091053
 20
-67.0175978432
 10
467.4447869775
 20
-69.0052611225
 10
468.6086696302
 20
-70.9413298923
 10
469.8579116161
 20
-72.8129199343
 10
471.1841994361
 20
-74.6075761257
 10
472.5787068635
 20
-76.3133553255
 10
474.0321536815
 20
-77.9189058547
 10
475.5348674412
 20
-79.4135430393
 10
477.0768478306
 20
-80.7873203155
 10
478.6478332246
 20
-82.0310954221
 10
480.2373689745
 20
-83.1365912411
 10
481.8348769822
 20
-84.0964508802
 10
483.4297260955
 20
-84.9042866317
 10
485.0113028567
 20
-85.5547224822
 10
486.5690821333
 20
-86.0434298883
 10
488.0926971613
 20
-86.3671565828
 10
489.572008534
 20
-86.5237482181
 10
490.9971716784
 20
-86.5121627025
 10
492.3587023688
 20
-86.3324771359
 10
493.6475398432
 20
-85.985887296
 10
494.8551071008
 20
-85.474699681
 10
495.9733679807
 20
-84.8023161602
 10
496.9948806412
 20
-83.9732113349
 10
497.9128470842
 20
-82.9929027609
 10
498.7211583945
 20
-81.8679142302
 10
499.4144353935
 20
-80.6057323557
 10
499.9880644374
 20
-79.2147567496
 10
500.4382281193
 20
-77.704244125
 10
500.7619306744
 20
-76.0842466943
 10
500.9570179154
 20
-74.365545273
 10
501.0221915691
 20
-72.5595775356
  0
LWPOLYLINE
  5
AA
330
1F
100
AcDbEntity
  8
0
  6
Continuous
 62
     7
370
    25
100
AcDbPolyline
 90
       83
 70
   128
 43
0.0
 10
503.7091973376
 20
-74.1107529481
 10
503.6438413934
 20
-72.1040977092
 10
503.4481570953
 20
-70.0337599541
 10
503.1232927968
 20
-67.911889248
 10
502.6711549306
 20
-65.7509375719
 10
502.0943968216
 20
-63.5635862496
 10
501.3964031156
 20
-61.3626715283
 10
500.5812699173
 20
-59.1611092508
 10
499.6537807524
 20
-56.97181906
 10
498.6193784961
 20
-54.8076485811
 10
497.4841334322
 20
-52.6812980273
 10
496.2547076302
 20
-50.6052456689
 10
494.9383158494
 20
-48.5916746067
 10
493.5426832003
 20
-46.6524012764
 10
492.0759998103
 20
-44.7988061051
 10
490.5468727606
 20
-43.0417667262
 10
488.9642755769
 20
-41.3915941454
 10
487.3374955686
 20
-39.8579722316
 10
485.6760793278
 20
-38.4499008881
 10
483.9897767056
 20
-37.1756432374
 10
482.2884835962
 20
-36.04267713
 10
480.5821838642
 20
-35.0576512616
 10
478.8808907549
 20
-34.2263461556
 10
477.1945881326
 20
-33.553640241
 10
475.5331718918
 20
-33.0434812235
 10
473.9063918836
 20
-32.6988629192
 10
472.3237946998
 20
-32.5218076853
 10
470.7946676501
 20
-32.5133545522
 10
469.3279842601
 20
-32.6735531264
 10
467.932351611
 20
-33.0014632989
 10
466.6159598302
 20
-33.4951607624
 10
465.3865340282
 20
-34.1517483038
 10
464.2512889643
 20
-34.9673728066
 10
463.216886708
 20
-35.9372478616
 10
462.2893975431
 20
-37.0556818565
 10
461.4742643448
 20
-38.3161113758
 10
460.7762706389
 20
-39.7111397179
 10
460.1995125298
 20
-41.2325803018
 10
459.7473746636
 20
-42.8715047093
 10
459.4225103651
 20
-44.6182950801
 10
459.2268260671
 20
-46.4627005538
 10
459.1614701228
 20
-48.3938974257
 10
459.2268260671
 20
-50.4005526646
 10
459.4225103651
 20
-52.4708904197
 10
459.7473746636
 20
-54.5927611258
 10
460.1995125298
 20
-56.7537128018
 10
460.7762706389
 20
-58.9410641242
 10
461.4742643448
 20
-61.1419788455
 10
462.2893975431
 20
-63.3435411229
 10
463.216886708
 20
-65.5328313138
 10
464.2512889643
 20
-67.6970017926
 10
465.3865340282
 20
-69.8233523465
 10
466.6159598302
 20
-71.8994047049
 10
467.932351611
 20
-73.912975767
 10
469.3279842601
 20
-75.8522490973
 10
470.7946676501
 20
-77.7058442687
 10
472.3237946998
 20
-79.4628836476
 10
473.9063918836
 20
-81.1130562284
 10
475.5331718918
 20
-82.6466781421
 10
477.1945881326
 20
-84.0547494856
 10
478.8808907549
 20
-85.3290071364
 10
480.5821838642
 20
-86.4619732438
 10
482.2884835962
 20
-87.4469991122
 10
483.9897767056
 20
-88.2783042182
 10
485.6760793278
 20
-88.9510101328
 10
487.3374955686
 20
-89.4611691502
 10
488.9642755769
 20
-89.8057874545
 10
490.5468727606
 20
-89.9828426885
 10
492.0759998103
 20
-89.9912958215
 10
493.5426832003
 20
-89.8310972474
 10
494.9383158494
 20
-89.5031870749
 10
496.2547076302
 20
-89.0094896114
 10
497.4841334322
 20
-88.3529020699
 10
498.6193784961
 20
-87.5372775672
 10
499.6537807524
 20
-86.5674025122
 10
500.5812699173
 20
-85.4489685173
 10
501.3964031156
 20
-84.188538998
 10
502.0943968216
 20
-82.7935106559
 10
502.6711549306
 20
-81.2720700719
 10
503.1232927968
 20
-79.6331456645
 10
503.4481570953
 20
-77.8863552937
 10
503.6438413934
 20
-76.04194982
 10
503.7091973376
 20
-74.1107529481
  0
ELLIPSE
  5
AB
330
1F
100
AcDbEntity
  8
0
  6
Continuous
 62
     7
370
    25
100
AcDbEllipse
 10
400.8251606749
 20
-107.7875875608
 30
0.0
 11
44.54772721475246
 21
7.105427357601002E-14
 31
0.0
210
0.0
220
0.0
230
1.0
 40
0.5773815452
 41
4.712388980384697
 42
5.49770587972005
  0
LINE
  5
AC
330
1F
100
AcDbEntity
  8
0
  6
Continuous
 62
     7
370
    25
100
AcDbLine
 10
400.8251606749
 20
-71.4155058362
 30
0.0
 11
400.8251606749
 21
-133.5086231352
 31
0.0
  0
LWPOLYLINE
  5
AD
330
1F
100
AcDbEntity
  8
0
  6
Continuous
 62
     7
370
    25
100
AcDbPolyline
 90
       78
 70
   128
 43
0.0
 10
344.0444861457
 20
-52.3942971736
 10
343.979312492
 20
-50.5883294362
 10
343.784225251
 20
-48.8696280149
 10
343.4605226959
 20
-47.2496305842
 10
343.0103590139
 20
-45.7391179596
 10
342.4367299701
 20
-44.3481423535
 10
341.743452971
 20
-43.085960479
 10
340.9351416608
 20
-41.9609719483
 10
340.0171752178
 20
-40.9806633744
 10
338.9956625572
 20
-40.1515585491
 10
337.8774016774
 20
-39.4791750282
 10
336.6698344198
 20
-38.9679874132
 10
335.3809969454
 20
-38.6213975733
 10
334.019466255
 20
-38.4417120067
 10
332.5943031106
 20
-38.4301264912
 10
331.1149917379
 20
-38.5867181264
 10
329.5913767099
 20
-38.9104448209
 10
328.0335974332
 20
-39.399152227
 10
326.4520206721
 20
-40.0495880775
 10
324.8571715588
 20
-40.8574238291
 10
323.2596635511
 20
-41.8172834681
 10
321.6701278012
 20
-42.9227792871
 10
320.0991424072
 20
-44.1665543937
 10
318.5571620178
 20
-45.5403316699
 10
317.0544482581
 20
-47.0349688545
 10
315.6010014401
 20
-48.6405193837
 10
314.2064940127
 20
-50.3462985835
 10
312.8802061927
 20
-52.1409547749
 10
311.6309642068
 20
-54.0125448169
 10
310.4670815541
 20
-55.9486135867
 10
309.3963036819
 20
-57.936276866
 10
308.42575644
 20
-59.9623070837
 10
307.5618986604
 20
-62.0132213428
 10
306.810479174
 20
-64.0753711474
 10
306.1764985534
 20
-66.1350332307
 10
305.6641758352
 20
-68.1785008815
 10
305.2769204425
 20
-70.1921751596
 10
305.0173094961
 20
-72.162655395
 10
304.8870706639
 20
-74.0768283668
 10
304.8870706639
 20
-75.9219555697
 10
305.0173094961
 20
-77.6857579866
 10
305.2769204425
 20
-79.3564978033
 10
305.6641758352
 20
-80.9230565222
 10
306.1764985534
 20
-82.3750089533
 10
306.810479174
 20
-83.7026925928
 10
307.5618986604
 20
-84.8972719251
 10
308.42575644
 20
-85.9507972219
 10
309.3963036819
 20
-86.8562574461
 10
310.4670815541
 20
-87.6076269093
 10
311.6309642068
 20
-88.1999053718
 10
312.8802061927
 20
-88.629151318
 10
314.2064940127
 20
-88.892508187
 10
315.6010014401
 20
-88.9882233823
 10
317.0544482581
 20
-88.9156599351
 10
318.5571620178
 20
-88.6753007432
 10
320.0991424072
 20
-88.2687453572
 10
321.6701278012
 20
-87.6986993363
 10
323.2596635511
 20
-86.9689562426
 10
324.8571715588
 20
-86.084372396
 10
326.4520206721
 20
-85.0508345561
 10
328.0335974333
 20
-83.8752207467
 10
329.5913767099
 20
-82.5653544837
 10
331.1149917379
 20
-81.129952711
 10
332.5943031106
 20
-79.5785677906
 10
334.019466255
 20
-77.9215239331
 10
335.3809969454
 20
-76.1698484921
 10
336.6698344198
 20
-74.3351985785
 10
337.8774016774
 20
-72.4297834849
 10
338.9956625572
 20
-70.4662834343
 10
340.0171752178
 20
-68.4577651956
 10
340.9351416608
 20
-66.4175951264
 10
341.743452971
 20
-64.3593502218
 10
342.4367299701
 20
-62.296727762
 10
343.0103590139
 20
-60.2434541593
 10
343.4605226959
 20
-58.2131936107
 10
343.784225251
 20
-56.2194571652
 10
343.979312492
 20
-54.2755128098
 10
344.0444861457
 20
-52.3942971736
  0
LWPOLYLINE
  5
AE
330
1F
100
AcDbEntity
  8
0
  6
Continuous
 62
     7
370
    25
100
AcDbPolyline
 90
       83
 70
   128
 43
0.0
 10
346.7314919142
 20
-50.8431217611
 10
346.6661359699
 20
-48.9119248893
 10
346.4704516719
 20
-47.0675194155
 10
346.1455873734
 20
-45.3207290447
 10
345.6934495072
 20
-43.6818046373
 10
345.1166913982
 20
-42.1603640534
 10
344.4186976922
 20
-40.7653357112
 10
343.6035644939
 20
-39.5049061919
 10
342.676075329
 20
-38.3864721971
 10
341.6416730727
 20
-37.416597142
 10
340.5064280088
 20
-36.6009726393
 10
339.2770022068
 20
-35.9443850978
 10
337.960610426
 20
-35.4506876343
 10
336.5649777769
 20
-35.1227774619
 10
335.0982943869
 20
-34.9625788877
 10
333.5691673372
 20
-34.9710320207
 10
331.9865701535
 20
-35.1480872547
 10
330.3597901452
 20
-35.492705559
 10
328.6983739044
 20
-36.0028645765
 10
327.0120712822
 20
-36.6755704911
 10
325.3107781728
 20
-37.506875597
 10
323.6044784408
 20
-38.4919014655
 10
321.9031853315
 20
-39.6248675728
 10
320.2168827092
 20
-40.8991252236
 10
318.5554664684
 20
-42.3071965671
 10
316.9286864601
 20
-43.8408184809
 10
315.3460892764
 20
-45.4909910616
 10
313.8169622267
 20
-47.2480304406
 10
312.3502788367
 20
-49.1016256119
 10
310.9546461876
 20
-51.0408989422
 10
309.6382544068
 20
-53.0544700043
 10
308.4088286048
 20
-55.1305223627
 10
307.2735835409
 20
-57.2568729166
 10
306.2391812846
 20
-59.4210433954
 10
305.3116921197
 20
-61.6103335863
 10
304.4965589214
 20
-63.8118958638
 10
303.7985652154
 20
-66.0128105851
 10
303.2218071064
 20
-68.2001619074
 10
302.7696692402
 20
-70.3611135834
 10
302.4448049417
 20
-72.4829842895
 10
302.2491206437
 20
-74.5533220446
 10
302.1837646994
 20
-76.5599772836
 10
302.2491206437
 20
-78.4911741554
 10
302.4448049417
 20
-80.3355796291
 10
302.7696692402
 20
-82.0823699999
 10
303.2218071064
 20
-83.7212944074
 10
303.7985652154
 20
-85.2427349913
 10
304.4965589214
 20
-86.6377633335
 10
305.3116921197
 20
-87.8981928528
 10
306.2391812846
 20
-89.0166268476
 10
307.2735835409
 20
-89.9865019027
 10
308.4088286048
 20
-90.8021264054
 10
309.6382544068
 20
-91.4587139469
 10
310.9546461876
 20
-91.9524114104
 10
312.3502788367
 20
-92.2803215828
 10
313.8169622267
 20
-92.440520157
 10
315.3460892764
 20
-92.432067024
 10
316.9286864601
 20
-92.25501179
 10
318.5554664684
 20
-91.9103934857
 10
320.2168827092
 20
-91.4002344682
 10
321.9031853315
 20
-90.7275285536
 10
323.6044784408
 20
-89.8962234477
 10
325.3107781728
 20
-88.9111975792
 10
327.0120712822
 20
-87.7782314718
 10
328.6983739044
 20
-86.5039738211
 10
330.3597901452
 20
-85.0959024776
 10
331.9865701535
 20
-83.5622805638
 10
333.5691673372
 20
-81.9121079831
 10
335.0982943869
 20
-80.1550686041
 10
336.5649777769
 20
-78.3014734328
 10
337.960610426
 20
-76.3622001025
 10
339.2770022068
 20
-74.3486290404
 10
340.5064280088
 20
-72.272576682
 10
341.6416730727
 20
-70.1462261281
 10
342.676075329
 20
-67.9820556493
 10
343.6035644939
 20
-65.7927654584
 10
344.4186976922
 20
-63.5912031809
 10
345.1166913982
 20
-61.3902884596
 10
345.6934495072
 20
-59.2029371373
 10
346.1455873734
 20
-57.0419854612
 10
346.4704516719
 20
-54.9201147552
 10
346.6661359699
 20
-52.8497770001
 10
346.7314919142
 20
-50.8431217611
  0
LWPOLYLINE
  5
AF
330
1F
100
AcDbEntity
  8
0
  6
Continuous
 62
     7
370
    25
100
AcDbPolyline
 90
       12
 70
   128
 43
0.0
 10
499.4665566505
 20
-139.015197838
 10
499.4012007062
 20
-137.0840009661
 10
499.2055164082
 20
-135.2395954924
 10
498.8806521097
 20
-133.4928051216
 10
498.4285142435
 20
-131.8538807142
 10
497.8517561345
 20
-130.3324401302
 10
497.1537624285
 20
-128.9374117881
 10
496.3386292302
 20
-127.6769822688
 10
495.4111400653
 20
-126.5585482739
 10
494.376737809
 20
-125.5886732189
 10
493.2414927451
 20
-124.7730487162
 10
492.9414130821
 20
-124.5930864342
  0
LWPOLYLINE
  5
B0
330
1F
100
AcDbEntity
  8
0
  6
Continuous
 62
     7
370
    25
100
AcDbPolyline
 90
       32
 70
   128
 43
0.0
 10
461.4439730041
 20
-179.1541647642
 10
462.3733191431
 20
-179.6307900237
 10
463.6897109239
 20
-180.1244874872
 10
465.085343573
 20
-180.4523976597
 10
466.552026963
 20
-180.6125962339
 10
468.0811540127
 20
-180.6041431008
 10
469.6637511964
 20
-180.4270878669
 10
471.2905312047
 20
-180.0824695625
 10
472.9519474455
 20
-179.5723105451
 10
474.6382500677
 20
-178.8996046305
 10
476.3395431771
 20
-178.0682995245
 10
478.0458429091
 20
-177.0832736561
 10
479.7471360184
 20
-175.9503075487
 10
481.4334386407
 20
-174.676049898
 10
483.0948548815
 20
-173.2679785544
 10
484.7216348898
 20
-171.7343566407
 10
486.3042320735
 20
-170.0841840599
 10
487.8333591232
 20
-168.327144681
 10
489.3000425132
 20
-166.4735495096
 10
490.6956751623
 20
-164.5342761794
 10
492.0120669431
 20
-162.5207051172
 10
493.2414927451
 20
-160.4446527588
 10
494.376737809
 20
-158.3183022049
 10
495.4111400653
 20
-156.1541317261
 10
496.3386292302
 20
-153.9648415353
 10
497.1537624285
 20
-151.7632792578
 10
497.8517561345
 20
-149.5623645365
 10
498.4285142435
 20
-147.3750132142
 10
498.8806521097
 20
-145.2140615381
 10
499.2055164082
 20
-143.092190832
 10
499.4012007062
 20
-141.0218530769
 10
499.4665566505
 20
-139.015197838
  0
LINE
  5
B1
330
1F
100
AcDbEntity
  8
0
  6
Continuous
 62
     7
370
    25
100
AcDbLine
 10
-99.4434168484
 20
138.4118102193
 30
0.0
 11
-207.4434168484
 21
138.4118102193
 31
0.0
  0
LINE
  5
B2
330
1F
100
AcDbEntity
  8
0
  6
Continuous
 62
     7
370
    25
100
AcDbLine
 10
8.5565831516
 20
138.4118102193
 30
0.0
 11
-99.4434168484
 21
138.4118102193
 31
0.0
  0
LINE
  5
B3
330
1F
100
AcDbEntity
  8
0
  6
Continuous
 62
     7
370
    25
100
AcDbLine
 10
-99.4434168484
 20
75.4118102193
 30
0.0
 11
8.5565831516
 21
75.4118102193
 31
0.0
  0
LINE
  5
B4
330
1F
100
AcDbEntity
  8
0
  6
Continuous
 62
     7
370
    25
100
AcDbLine
 10
-207.4434168484
 20
75.4118102193
 30
0.0
 11
-99.4434168484
 21
75.4118102193
 31
0.0
  0
CIRCLE
  5
B5
330
1F
100
AcDbEntity
  8
0
  6
Continuous
 62
     7
370
    25
100
AcDbCircle
 10
-99.4434168484
 20
106.9118102193
 30
0.0
 40
27.7
  0
CIRCLE
  5
B6
330
1F
100
AcDbEntity
  8
0
  6
Continuous
 62
     7
370
    25
100
AcDbCircle
 10
-99.4434168484
 20
106.9118102193
 30
0.0
 40
31.5
  0
LINE
  5
B7
330
1F
100
AcDbEntity
  8
0
  6
Continuous
 62
     7
370
    25
100
AcDbLine
 10
-207.4434168484
 20
106.9118102193
 30
0.0
 11
-207.4434168484
 21
138.4118102193
 31
0.0
  0
LINE
  5
B8
330
1F
100
AcDbEntity
  8
0
  6
Continuous
 62
     7
370
    25
100
AcDbLine
 10
-207.4434168484
 20
75.4118102193
 30
0.0
 11
-207.4434168484
 21
106.9118102193
 31
0.0
  0
LINE
  5
B9
330
1F
100
AcDbEntity
  8
0
  6
Continuous
 62
     7
370
    25
100
AcDbLine
 10
8.5565831516
 20
106.9118102193
 30
0.0
 11
8.5565831516
 21
138.4118102193
 31
0.0
  0
LINE
  5
BA
330
1F
100
AcDbEntity
  8
0
  6
Continuous
 62
     7
370
    25
100
AcDbLine
 10
8.5565831516
 20
75.4118102193
 30
0.0
 11
8.5565831516
 21
106.9118102193
 31
0.0
  0
INSERT
  5
C6
330
1F
100
AcDbEntity
  8
FORMAT
100
AcDbBlockReference
  2
SW_CENTERMARKSYMBOL_1
 10
-99.4434168484
 20
106.9118102193
 30
0.0
  0
LINE
  5
C7
330
1F
100
AcDbEntity
  8
0
  6
Continuous
 62
     7
370
    25
100
AcDbLine
 10
75.7554326678
 20
4.1538318783
 30
0.0
 11
75.7554326678
 21
-211.8461681217
 31
0.0
  0
LINE
  5
C8
330
1F
100
AcDbEntity
  8
0
  6
Continuous
 62
     7
370
    25
100
AcDbLine
 10
138.7554326678
 20
-72.3461681217
 30
0.0
 11
138.7554326678
 21
4.1538318783
 31
0.0
  0
LINE
  5
C9
330
1F
100
AcDbEntity
  8
0
  6
Continuous
 62
     7
370
    25
100
AcDbLine
 10
138.7554326678
 20
-211.8461681217
 30
0.0
 11
138.7554326678
 21
-135.3461681217
 31
0.0
  0
LINE
  5
CA
330
1F
100
AcDbEntity
  8
0
  6
Continuous
 62
     7
370
    25
100
AcDbLine
 10
138.7554326678
 20
-135.3461681217
 30
0.0
 11
221.2554326678
 21
-135.3461681217
 31
0.0
  0
LINE
  5
CB
330
1F
100
AcDbEntity
  8
0
  6
Continuous
 62
     7
370
    25
100
AcDbLine
 10
221.2554326678
 20
-72.3461681217
 30
0.0
 11
138.7554326678
 21
-72.3461681217
 31
0.0
  0
LINE
  5
CC
330
1F
100
AcDbEntity
  8
0
  6
Continuous
 62
     7
370
    25
100
AcDbLine
 10
107.2554326678
 20
-103.8461681217
 30
0.0
 11
138.7554326678
 21
-135.3461681217
 31
0.0
  0
LINE
  5
CD
330
1F
100
AcDbEntity
  8
0
  6
Continuous
 62
     7
370
    25
100
AcDbLine
 10
138.7554326678
 20
-72.3461681217
 30
0.0
 11
107.2554326678
 21
-103.8461681217
 31
0.0
  0
LINE
  5
CE
330
1F
100
AcDbEntity
  8
0
  6
Continuous
 62
     7
370
    25
100
AcDbLine
 10
138.7554326678
 20
-211.8461681217
 30
0.0
 11
75.7554326678
 21
-211.8461681217
 31
0.0
  0
LINE
  5
CF
330
1F
100
AcDbEntity
  8
0
  6
Continuous
 62
     7
370
    25
100
AcDbLine
 10
138.7554326678
 20
4.1538318783
 30
0.0
 11
75.7554326678
 21
4.1538318783
 31
0.0
  0
LINE
  5
D0
330
1F
100
AcDbEntity
  8
0
  6
Continuous
 62
     7
370
    25
100
AcDbLine
 10
221.2554326678
 20
-72.3461681217
 30
0.0
 11
221.2554326678
 21
-135.3461681217
 31
0.0
  0
ENDSEC
  0
SECTION
  2
OBJECTS
  0
DICTIONARY
  5
C
330
0
100
AcDbDictionary
281
     1
  3
ACAD_GROUP
350
D
  3
ACAD_LAYOUT
350
1A
  3
ACAD_MLINESTYLE
350
17
  3
ACAD_PLOTSETTINGS
350
19
  3
ACAD_PLOTSTYLENAME
350
E
  3
ACAD_SCALELIST
350
47
  3
DWGPROPS
350
D1
  0
DICTIONARY
  5
D
102
{ACAD_REACTORS
330
C
102
}
330
C
100
AcDbDictionary
281
     1
  0
DICTIONARY
  5
1A
102
{ACAD_REACTORS
330
C
102
}
330
C
100
AcDbDictionary
281
     1
  3
Layout1
350
1E
  3
Layout2
350
26
  3
Model
350
22
  0
DICTIONARY
  5
17
102
{ACAD_REACTORS
330
C
102
}
330
C
100
AcDbDictionary
281
     1
  3
Standard
350
18
  0
DICTIONARY
  5
19
102
{ACAD_REACTORS
330
C
102
}
330
C
100
AcDbDictionary
281
     1
  0
ACDBDICTIONARYWDFLT
  5
E
102
{ACAD_REACTORS
330
C
102
}
330
C
100
AcDbDictionary
281
     1
  3
Normal
350
F
100
AcDbDictionaryWithDefault
340
F
  0
DICTIONARY
  5
47
102
{ACAD_REACTORS
330
C
102
}
330
C
100
AcDbDictionary
281
     1
  3
A0
350
48
  3
A1
350
49
  3
A2
350
4A
  3
A3
350
4B
  3
A4
350
4C
  3
A5
350
4D
  3
A6
350
4E
  3
A7
350
4F
  3
A8
350
50
  3
A9
350
51
  3
B0
350
52
  3
B1
350
53
  3
B2
350
54
  3
B3
350
55
  3
B4
350
56
  3
B5
350
57
  3
B6
350
58
  3
B7
350
59
  3
B8
350
5A
  3
B9
350
5B
  3
C0
350
5C
  3
C1
350
5D
  3
C2
350
5E
  3
C3
350
5F
  3
C4
350
60
  3
C5
350
61
  3
C6
350
62
  3
C7
350
63
  3
C8
350
64
  3
C9
350
65
  3
D0
350
66
  3
D1
350
67
  3
D2
350
68
  0
XRECORD
  5
D1
102
{ACAD_REACTORS
330
C
102
}
330
C
100
AcDbXrecord
280
     1
  1
DWGPROPS COOKIE
  2

  3

  4

  6

  7

  8
b.kav
  9

300
=
301
=
302
=
303
=
304
=
305
=
306
=
307
=
308
=
309
=
 40
0.0
 41
2459935.575480347
 42
2459935.575480521
  1

 90
        0
  0
LAYOUT
  5
1E
102
{ACAD_REACTORS
330
1A
102
}
330
1A
100
AcDbPlotSettings
  1

  2
none_device
  4

  6

 40
0.0
 41
0.0
 42
0.0
 43
0.0
 44
0.0
 45
0.0
 46
0.0
 47
0.0
 48
0.0
 49
0.0
140
0.0
141
0.0
142
1.0
143
1.0
 70
   688
 72
     1
 73
     0
 74
     5
  7

 75
    16
147
1.0
148
0.0
149
0.0
100
AcDbLayout
  1
Layout1
 70
     1
 71
     1
 10
0.0
 20
0.0
 11
420.0
 21
297.0
 12
0.0
 22
0.0
 32
0.0
 14
1.0000000000E+20
 24
1.0000000000E+20
 34
1.0000000000E+20
 15
-1.0000000000E+20
 25
-1.0000000000E+20
 35
-1.0000000000E+20
146
0.0
 13
0.0
 23
0.0
 33
0.0
 16
1.0
 26
0.0
 36
0.0
 17
0.0
 27
1.0
 37
0.0
 76
     0
330
1B
  0
LAYOUT
  5
26
102
{ACAD_REACTORS
330
1A
102
}
330
1A
100
AcDbPlotSettings
  1

  2
none_device
  4

  6

 40
0.0
 41
0.0
 42
0.0
 43
0.0
 44
0.0
 45
0.0
 46
0.0
 47
0.0
 48
0.0
 49
0.0
140
0.0
141
0.0
142
1.0
143
1.0
 70
   688
 72
     1
 73
     0
 74
     5
  7

 75
    16
147
1.0
148
0.0
149
0.0
100
AcDbLayout
  1
Layout2
 70
     1
 71
     2
 10
0.0
 20
0.0
 11
0.0
 21
0.0
 12
0.0
 22
0.0
 32
0.0
 14
0.0
 24
0.0
 34
0.0
 15
0.0
 25
0.0
 35
0.0
146
0.0
 13
0.0
 23
0.0
 33
0.0
 16
1.0
 26
0.0
 36
0.0
 17
0.0
 27
1.0
 37
0.0
 76
     0
330
23
  0
LAYOUT
  5
22
102
{ACAD_REACTORS
330
1A
102
}
330
1A
100
AcDbPlotSettings
  1

  2
none_device
  4
Letter_(8.50_x_11.00_Inches)
  6

 40
6.35
 41
6.35
 42
6.35000508
 43
6.35000508
 44
215.9
 45
279.4
 46
0.0
 47
0.0
 48
0.0
 49
0.0
140
0.0
141
0.0
142
1.0
143
1.0
 70
  1712
 72
     1
 73
     0
 74
     0
  7

 75
     0
147
1.0
148
0.0
149
0.0
100
AcDbLayout
  1
Model
 70
     1
 71
     0
 10
0.0
 20
0.0
 11
279.4
 21
215.9
 12
0.0
 22
0.0
 32
0.0
 14
0.0
 24
0.0
 34
0.0
 15
279.4
 25
215.9
 35
0.0
146
0.0
 13
0.0
 23
0.0
 33
0.0
 16
1.0
 26
0.0
 36
0.0
 17
0.0
 27
1.0
 37
0.0
 76
     0
330
1F
331
29
  0
MLINESTYLE
  5
18
102
{ACAD_REACTORS
330
17
102
}
330
17
100
AcDbMlineStyle
  2
Standard
 70
     0
  3

 62
   256
 51
90.0
 52
90.0
 71
     2
 49
0.5
 62
   256
  6
BYLAYER
 49
-0.5
 62
   256
  6
BYLAYER
  0
ACDBPLACEHOLDER
  5
F
102
{ACAD_REACTORS
330
E
102
}
330
E
  0
SCALE
  5
48
102
{ACAD_REACTORS
330
47
102
}
330
47
100
AcDbScale
 70
     0
300
1:1
140
1.0
141
1.0
290
     1
  0
SCALE
  5
49
102
{ACAD_REACTORS
330
47
102
}
330
47
100
AcDbScale
 70
     0
300
1:2
140
1.0
141
2.0
290
     0
  0
SCALE
  5
4A
102
{ACAD_REACTORS
330
47
102
}
330
47
100
AcDbScale
 70
     0
300
1:4
140
1.0
141
4.0
290
     0
  0
SCALE
  5
4B
102
{ACAD_REACTORS
330
47
102
}
330
47
100
AcDbScale
 70
     0
300
1:5
140
1.0
141
5.0
290
     0
  0
SCALE
  5
4C
102
{ACAD_REACTORS
330
47
102
}
330
47
100
AcDbScale
 70
     0
300
1:8
140
1.0
141
8.0
290
     0
  0
SCALE
  5
4D
102
{ACAD_REACTORS
330
47
102
}
330
47
100
AcDbScale
 70
     0
300
1:10
140
1.0
141
10.0
290
     0
  0
SCALE
  5
4E
102
{ACAD_REACTORS
330
47
102
}
330
47
100
AcDbScale
 70
     0
300
1:16
140
1.0
141
16.0
290
     0
  0
SCALE
  5
4F
102
{ACAD_REACTORS
330
47
102
}
330
47
100
AcDbScale
 70
     0
300
1:20
140
1.0
141
20.0
290
     0
  0
SCALE
  5
50
102
{ACAD_REACTORS
330
47
102
}
330
47
100
AcDbScale
 70
     0
300
1:30
140
1.0
141
30.0
290
     0
  0
SCALE
  5
51
102
{ACAD_REACTORS
330
47
102
}
330
47
100
AcDbScale
 70
     0
300
1:40
140
1.0
141
40.0
290
     0
  0
SCALE
  5
52
102
{ACAD_REACTORS
330
47
102
}
330
47
100
AcDbScale
 70
     0
300
1:50
140
1.0
141
50.0
290
     0
  0
SCALE
  5
53
102
{ACAD_REACTORS
330
47
102
}
330
47
100
AcDbScale
 70
     0
300
1:100
140
1.0
141
100.0
290
     0
  0
SCALE
  5
54
102
{ACAD_REACTORS
330
47
102
}
330
47
100
AcDbScale
 70
     0
300
2:1
140
2.0
141
1.0
290
     0
  0
SCALE
  5
55
102
{ACAD_REACTORS
330
47
102
}
330
47
100
AcDbScale
 70
     0
300
4:1
140
4.0
141
1.0
290
     0
  0
SCALE
  5
56
102
{ACAD_REACTORS
330
47
102
}
330
47
100
AcDbScale
 70
     0
300
8:1
140
8.0
141
1.0
290
     0
  0
SCALE
  5
57
102
{ACAD_REACTORS
330
47
102
}
330
47
100
AcDbScale
 70
     0
300
10:1
140
10.0
141
1.0
290
     0
  0
SCALE
  5
58
102
{ACAD_REACTORS
330
47
102
}
330
47
100
AcDbScale
 70
     0
300
100:1
140
100.0
141
1.0
290
     0
  0
SCALE
  5
59
102
{ACAD_REACTORS
330
47
102
}
330
47
100
AcDbScale
 70
     0
300
1/128" = 1'-0"
140
0.0078125
141
12.0
290
     0
  0
SCALE
  5
5A
102
{ACAD_REACTORS
330
47
102
}
330
47
100
AcDbScale
 70
     0
300
1/64" = 1'-0"
140
0.015625
141
12.0
290
     0
  0
SCALE
  5
5B
102
{ACAD_REACTORS
330
47
102
}
330
47
100
AcDbScale
 70
     0
300
1/32" = 1'-0"
140
0.03125
141
12.0
290
     0
  0
SCALE
  5
5C
102
{ACAD_REACTORS
330
47
102
}
330
47
100
AcDbScale
 70
     0
300
1/16" = 1'-0"
140
0.0625
141
12.0
290
     0
  0
SCALE
  5
5D
102
{ACAD_REACTORS
330
47
102
}
330
47
100
AcDbScale
 70
     0
300
3/32" = 1'-0"
140
0.09375
141
12.0
290
     0
  0
SCALE
  5
5E
102
{ACAD_REACTORS
330
47
102
}
330
47
100
AcDbScale
 70
     0
300
1/8" = 1'-0"
140
0.125
141
12.0
290
     0
  0
SCALE
  5
5F
102
{ACAD_REACTORS
330
47
102
}
330
47
100
AcDbScale
 70
     0
300
3/16" = 1'-0"
140
0.1875
141
12.0
290
     0
  0
SCALE
  5
60
102
{ACAD_REACTORS
330
47
102
}
330
47
100
AcDbScale
 70
     0
300
1/4" = 1'-0"
140
0.25
141
12.0
290
     0
  0
SCALE
  5
61
102
{ACAD_REACTORS
330
47
102
}
330
47
100
AcDbScale
 70
     0
300
3/8" = 1'-0"
140
0.375
141
12.0
290
     0
  0
SCALE
  5
62
102
{ACAD_REACTORS
330
47
102
}
330
47
100
AcDbScale
 70
     0
300
1/2" = 1'-0"
140
0.5
141
12.0
290
     0
  0
SCALE
  5
63
102
{ACAD_REACTORS
330
47
102
}
330
47
100
AcDbScale
 70
     0
300
3/4" = 1'-0"
140
0.75
141
12.0
290
     0
  0
SCALE
  5
64
102
{ACAD_REACTORS
330
47
102
}
330
47
100
AcDbScale
 70
     0
300
1" = 1'-0"
140
1.0
141
12.0
290
     0
  0
SCALE
  5
65
102
{ACAD_REACTORS
330
47
102
}
330
47
100
AcDbScale
 70
     0
300
1-1/2" = 1'-0"
140
1.5
141
12.0
290
     0
  0
SCALE
  5
66
102
{ACAD_REACTORS
330
47
102
}
330
47
100
AcDbScale
 70
     0
300
3" = 1'-0"
140
3.0
141
12.0
290
     0
  0
SCALE
  5
67
102
{ACAD_REACTORS
330
47
102
}
330
47
100
AcDbScale
 70
     0
300
6" = 1'-0"
140
6.0
141
12.0
290
     0
  0
SCALE
  5
68
102
{ACAD_REACTORS
330
47
102
}
330
47
100
AcDbScale
 70
     0
300
1'-0" = 1'-0"
140
12.0
141
12.0
290
     0
  0
ENDSEC
  0
EOF
